Search
Home
Add Tabs
Biography
Guestbook
News
Contact
Links
Forum
Authors by letter: A B C D E F G H I J K L M N O P Q R S T U V W X Y Z Other 
LOGIN
Username
Password
Poll of the day
Cats or dogs?
Cats
Dogs
LINKS




Most searched "Gracenote" tabs

When I Dream About You - Gracenote Tabs

Home >> Artists starting with G >> Gracenote Tabs 

When I Dream About You - Gracenote

Added by Administrator on 2012-07-26 01:20:18


FROM: http://www.savetubevideo.com/?v=HDvFt1ch7Es

When I Dream About You
By Gracenote

Drop D Tuning

INTRO:
|------------------------------------------------------------|
|-------------6-7-7/9-9-9-9-9/11-9-7-6-----------6-6-6h7p6---|
|-6-6-6-6-6-8--------------------------6br-6-6-8-----------8-|
|------------------------------------------------------------|
|------------------------------------------------------------|
|------------------------------------------------------------|

|------------------------------------------------------------|
|-------------6-7-7/9-9-9-9-9-6-8-6-8-8v---------------------|
|-6-6-6-6-6-8-------------------------------66--6-6----------|
|------------------------------------------------------------|
|-------------------------------------------44--4-4----------|
|------------------------------------------------------------|

VERSE:
|----------------------------------------------------------|
|----------------------------------------------------------|
|-66666666---88888888---10-10-10-10-10-10-10-10---66666666-|
|-66666666-------------------------------------------------| 2x
|-44444444-------------------------------------------------|
|------------66666666---8--8--8--8--8--8--8--8----44444444-|

PRE-CHORUS:
Gtr.2
|-2----------------|-4-------------|-----------------|--------1-|
|---3---3-----3----|---5---5-----5-|-----------------|-----1--1-|
|-----4---4-----4/-|-----6---6-----|-----6-------5---|---3----2-|
|-----------4------|-----------6---|---6---6---6---6-|-3--------|
|------------------|---------------|-4-------3-------|----------|
|------------------|---------------|-----------------|----------|

|-2---------------------------|-------4--------4-4-4-4-|
|---3---3-----3-----3---------|-----5---5---5--5-5-5-5-|
|-----4---4-----4-----4---4-4-|---6-------6----6-6-6-6-|
|-----------4-----4-----4-----|-6----------------------|
|-----------------------------|------------------------|
|-----------------------------|------------------------|

CHORUS:
Gtr.1
|----------------------------------------------------------------------------------------|
|----------------------------------------------------------------------------------------|
|-10---6----8----6----6----3----6----6----8----10----6----8----6----6----3----6-----6----|
|-8----4----6----6-x4-6-x4-3-x7-4----6-x7-6----8-----4----6----6-x4-6-x4-3-x7-4-----6----|
|-8-x7-4-x7-6-x7-4----3----1----4-x7-4----6-x7-8--x7-4-x7-6-x7-4----3----1----4-x12-6-x6-|
|-8----4----6-------------------4---------6----8-----4----6-------------------4-----6----|

Gtr.2
|9----9----9----9-----10----10----10----10----8---8---8---8---9---9---8---8---9----9----9----9---|
|------------------------------------------------------------------------------------------------|
|--10---10---10---10-----11----11----11----11---8---8---8---8---6---6---6---6---10---10---10---10|
|------------------------------------------------------------------------------------------------|
|------------------------------------------------------------------------------------------------|
|------------------------------------------------------------------------------------------------|

|-----------------8---8---8---8--------------------|
|-7---7---7---7--------------------9---9---9---9---|
|---6---6---6---6---8---8---8---8----8---8---8---8-| Repeat Upper Tab
|--------------------------------------------------| 1x
|--------------------------------------------------| Then
|--------------------------------------------------|

|----------------------------------|
|-7---7---7---7----9---9---9---9---|
|---6---6---6---6----8---8---8---8-|
|----------------------------------|
|----------------------------------|
|----------------------------------|

Repeat Intro: 2nd part:
Repeat Verse:

Pre-Chrous:
Gtr.1
|----------------------------------------------------|
|----------------------------------------------------|
|----------------------------------------------------|
|-4-4-444--5-5-555--6-6-333--7-7-777--4------6----6/-|
|-4-4-444--5-5-555--0-0-333--0-0-000--4-x10--6-x8-6/-|
|-4-4-444--5-5-555--3-3-333--4-4-444--4------6----6/-|

Repeat Chorus:

Before Bridge:
|-------------|
|-------------|
|-------------|
|-8-6-4-8-6-4-|
|-8-6-4-8-6-4-|
|-8-6-4-8-6-4-|


BRIDGE:
|-------------------------------------------------------------------------|
|-------------------------------------------------------------------------|
|-----------------------------------------------------------------------8-|
|-----------------------------1--1-1--1-1/--------------------------------| 2x
|-----4-4-----------4-4-------1--1-1--1-1/------4-4-----------4-4-------6-|
|-6-8-----8-6-8-6-8-----8-6-8-1--1-1--1-1/--6-8-----8-6-8-6-8-----8-6-8---|

OUTRO:
|---------------------------------------|
|---------------------------------------|
|---------------------------------------|
|-8----6----4-----8----6----4----4-44-4-|
|-8-x7-6-x7-4-x13-8-x7-6-x7-4-x7-4-44-4-|
|-8----6----4-----8----6----4----4-44-4-|


****** SORI MAY MGA MALI PA YAN :))) **********

correct these lyrics

Top 25 tabs of the month : 1) Dashboard Confessional - What I Wanted To Say Was, 2) Krewella - Alive, 3) Wax Fang - Majestic, 4) Emilys Army - Loch Lomond, 5) Black Keys - Summertime Blues, 6) Daft Punk - Beyond, 7) Jesus Culture - The Anthem, 8) Misc Unsigned Bands - The Slakadeliqs - Love Controls The Sun Feat Justin Nozuka, 9) Johnny Hobo And The Freight Trains - Im So Punk I Hate Punk, 10) John Butler Trio - Take Me, 11) En Vogue - Free Your Mind, 12) Andreas Et Nicolas - Je Deteste Le Sexe, 13) Jason Castro - Hallelujah, 14) Boyce Avenue - Your Biggest Fan, 15) Bernhoft - Cmon Talk, 16) Black Keys - Hold Me In Your Arms, 17) Heaven Shall Burn - Dying In Silence, 18) Biffy Clyro - Trumpet Or Tap, 19) Joe Satriani - Ill Put A Stone On Your Cairn, 20) Volbeat - Room 24, 21) Steven Wilson - The Watchmaker, 22) High On Fire - Samsara, 23) Hollywood Undead - Lump Your Head, 24) Jan Hegenberg - Strke Und Ehre, 25) Iron Maiden - Coming Home,
TmCod 2010
All tabs are property and copyright of their owners. All tabs provided for educational purposes only
Copyright © www.tabspedia.com Please read our Privacy policy