Search
Home
Add Tabs
Biography
Guestbook
News
Contact
Links
Forum
Authors by letter: A B C D E F G H I J K L M N O P Q R S T U V W X Y Z Other 
LOGIN
Username
Password
Poll of the day
Do you listen to music to help you fall asleep?
Yes
No
LINKS




El Gavilán - Violeta Parra Tabs

Home >> Artists starting with V >> Violeta Parra Tabs 

El Gavilán - Violeta Parra

Added by Administrator on 2012-01-23 09:41:19


Violeta Parra: El gavilán, gavilán (Versión París)

||----------------------------------------------|
||---2--2-2-3--5-7-7/10—-10-10-10-10-9-10-9--7--|
||----------------------------------------------|
||----------------------------------------------|
||---0--0-0-2—-4-6-6/9---9--9--9--9--8-9--8--6--|
||----------------------------------------------|

|-----------------------------------------------|
|-3--3-3-5--5-7-/8--8-8-8-8-7-8-7--5------------|
|-----------------------------------------------|
|-----------------------------------------------|
|-2--2-2-4--4-6-/7--7-7-7-7-6-7-6--4------------|
|-----------------------------------------------|

|-----------------------------------------------|
|-3--3-3-5--5-7-/8--8-8-8-8-7-8-7--5------------|
|-----------------------------------------------|
|-----------------------------------------------|
|-2--2-2-4--4-6-/7--7-7-7-7-6-7-6--4------------|
|-----------------------------------------------|

|-----------------------------------------------|
|-(3)--2--2-2-3--5-7-/10—-10-10-10-10-9-10--9---|
|-----------------------------------------------|
|-----------------------------------------------|
|-(2)--0--0-0-2—-4-6-/9---9--9--9--9--8-9---8---|
|-----------------------------------------------|

|-----------------------------------------------|
|-10-10-9-10--9---10-10-9-10--/-3---------------|
|-----------------------------------------------|
|-----------------------------------------------|
|-9--9--8-9---8---9--9--8-9---/2----------------|
|-----------------------------------------------|

|-----------------------------------------------|
|--2--2-2-3--5-/7-—-10-10-10-10-9-10-9—-7-------|
|-----------------------------------------------|
|-----------------------------------------------|
|--0--0-0-2—-4-/6---9--9--9--9--8-9--8--6-------|
|-----------------------------------------------|

Mi vida yo te qui, yo te quise veleidoso

|-----------------------------------------------|
|-3--3-3-5--5-/7---8-8-8-8-7-8-7--5-------------|
|-----------------------------------------------|
|-----------------------------------------------|
|-2--2-2-4--4-/6---7-7-7-7-6-7-6--4-------------|
|-----------------------------------------------|

Mi vida creyendo, creyéndote lisonjero

|-----------------------------------------------|
|-3--3-3-5--5-/7---8-8-8-8-7-8-7--5-------------|
|-----------------------------------------------|
|-----------------------------------------------|
|-2--2-2-4--4-/6---7-7-7-7-6-7-6--4-------------|
|-----------------------------------------------|

Mi vida creyendo, creyéndote lisonjero

|-----------------------------------------------|
|--2--2-2-3--5-/7-—-10-10-10-10-9-10-9—-7-------|
|-----------------------------------------------|
|-----------------------------------------------|
|--0--0-0-2—-4-/6---9--9--9--9--8-9--8--6-------|
|-----------------------------------------------|

Mi vida se me par, se me parte el corazón

|-----------------------------------------------|
|-3--3-3-5--5-/7---8-8-8-8-7-8-7--5-------------|
|-----------------------------------------------|
|-----------------------------------------------|
|-2--2-2-4--4-/6---7-7-7-7-6-7-6--4-------------|
|-----------------------------------------------|

Mi vida de verte, de verte tan embustero

|-----------------------------------------------|
|-3--3-3-5--5-/7---10-10-10-10-10-9-10--9-------|
|-----------------------------------------------|
|-----------------------------------------------|
|-2--2-2-4--4-/6---9--9--9--9--9--8-9---8-------|
|-----------------------------------------------|

Mi vida yo te qui, yo te quise yo te quise

|-----------------------------------------------|
|-10-10-9-10--9---10-10-9-10---/-3--------------|
|-----------------------------------------------|
|-----------------------------------------------|
|-9--9--8-9---8---9--9--8-9----/2---------------|
|-----------------------------------------------|

:/Si, ay ay ay/:

|-----------------------------------------------|
|------7-----7-----7/3-----3-----3/7------------|
|-----------------------------------------------|
|-----------------------------------------------|
|--6-6---6-6---6-6-----2-2---2-2----------------|
|-----------------------------------------------|

|-----------------------------------------------|
|------7-----7-----7/3-----3-----3/6------------|
|-----------------------------------------------|
|-----------------------------------------------|
|--6-6---6-6---6-6-----2-2---2-2----------------|
|-----------------------------------------------|

|-----------------------------------------------|
|------6-----6-----6/2-----2-----2/6------------|
|-----------------------------------------------|
|-----------------------------------------------|
|--5-5---5-5---5-5-----1-1---1-1----------------|
|-----------------------------------------------|

|-----------------------------------------------|
|------6-----6-----6/2-----2-----2/7------------|
|-----------------------------------------------|
|-----------------------------------------------|
|--5-5---5-5---5-5-----1-1---1-1----------------|
|-----------------------------------------------|

|-----------------------------------------------|
|------7-----7-----7/3-----3-----3/7------------|
|-----------------------------------------------|
|-----------------------------------------------|
|--6-6---6-6---6-6-----2-2---2-2----------------|
|-----------------------------------------------|

Mi vida, mi vida yo te quise

|-----------------------------------------------|
|------7-----7-----7/3-----3-----3/6------------|
|-----------------------------------------------|
|-----------------------------------------------|
|--6-6---6-6---6-6-----2-2---2-2----------------|
|-----------------------------------------------|

Mi vida, mi vida yo te quise

|-----------------------------------------------|
|------6-----6-----6/2-----2-----2/6------------|
|-----------------------------------------------|
|-----------------------------------------------|
|--5-5---5-5---5-5-----1-1---1-1----------------|
|-----------------------------------------------|

Veleido, veleido, veleidoso

|-----------------------------------------------|
|------6-----6-----6/2-----2-----2/7------------|
|-----------------------------------------------|
|-----------------------------------------------|
|--5-5---5-5---5-5-----1-1---1-1----------------|
|-----------------------------------------------|

Veleido, veleido, veleidoso

|-----------------------------------------------|
|-----7-----7-----7-----7-----7-----7-----7-----|
|-----------------------------------------------|
|-----------------------------------------------|
|-6-6---6-6---6-6---6-6---6-6---6-6---6-6-------|
|-----------------------------------------------|

Mi vida, mi vida. Yo te qui, yo qui

|-----------------------------------------------|
|------7-----6-----5-----4-----3--2-------------|
|-----------------------------------------------|
|-----------------------------------------------|
|--6-6---5-5---4-4---3-3---2-2----1-------------|
|-----------------------------------------------|

Yo te qui, yo te qui, yo te qui, yo te qui, yo te quise

|--------------------------------------------------------|
|------5-----5-----5/2-----2-----2/5-----5-----5-----5/7-|
|--------------------------------------------------------|
|--------------------------------------------------------|
|--4-4---4-4---4-4-----1-1---1-1-----4-4---4-4---4-4-----|
|--------------------------------------------------------|

Veleido, veleido, veleido, veleidoso, veleidoso

|-----------------------------------------------|
|-----7------7-----6-----5-----4-----3--2-------|
|-----------------------------------------------|
|-----------------------------------------------|
|-6-6----6-6---5-5---4-4---3-3---2-2----1-------|
|-----------------------------------------------|

Yo te qui, yo te qui, yo te qui, yo te qui,
Yo te qui, yo te quise

|-------0-----0--7-----------0-----0--7---------|
|------6-----6-----6--------6-----6-----6-------|
|-----7-----7--------7-----7-----7--------7-----|
|----7-----7--------------7-----7---------------|
|---0-----0-----0--------0-----0-----0----------|
|-----------------------------------------------|

|-------0-----0----3---------0-----0----3-------|
|------4-----4-------4------4-----4-------4-----|
|-----5-----5----5---------5-----5----5---------|
|----5-----5--------------5-----5---------------|
|---0-----0-----0--------0-----0-----0----------|
|-----------------------------------------------|

|-------0-----0--7-----------0-----0--7---------|
|------6-----6-----6--------6-----6-----6-------|
|-----7-----7--------7-----7-----7--------7-----|
|----7-----7--------------7-----7---------------|
|---0-----0-----0--------0-----0-----0----------|
|-----------------------------------------------|

Te la llevaris, te la llevaris, mentiroso
Te la llevaris, te la llevaris, pretencioso

|-------0-----0----3---------0-----0----3-------|
|------4-----4-------4------4-----4-------4-----|
|-----5-----5----5---------5-----5----5---------|
|----5-----5--------------5-----5---------------|
|---0-----0-----0--------0-----0-----0----------|
|-----------------------------------------------|

Te la llevaris, te la llevaris, fastidioso
Te la llevaris, te la llevaris, mentiroso

|-----------------------------------------------|
|--6--6--5-6--5-----6--6--5-6--5----------------|
|--7--7--6-7--6-----7--7--6-7--6----------------|
|-----------------------------------------------|
|-----------------------------------------------|
|-----------------------------------------------|

Prenda del alma... Si ay ay ay

|--------------------------------------------------|
|--6-----6-----5-----5-----6-----6-----5-----5-----|
|--7-----7-----6-----6-----7-----7-----6-----6-----|
|--7-----7-----6-----6-----7-----7-----6-----6-----|
|----0-0---0-0---0-0---0-0---0-0---0-0---0-0-------|
|--------------------------------------------------|

Prenda del alma... Si ay ay ay

|-------0-----0--7-----------0-----0--7---------|
|------6-----6-----6--------6-----6-----6-------|
|-----7-----7--------7-----7-----7--------7-----|
|----7-----7--------------7-----7---------------|
|---0-----0-----0--------0-----0-----0----------|
|-----------------------------------------------|

Tiquitiquití tiquitiquití mentiroso
Tiquitiquití tiquitiquití mentiroso

|-------0-----7-----0-----7-----0-----7---------|
|------6-----6-----6-----6-----6-----6----------|
|-----7-----7-----7-----7-----7-----7-----------|
|----7-----7-----7-----7-----7-----7------------|
|---0-----0-----0-----0-----0-----0-------------|
|-----------------------------------------------|

Tiquitiquití tiquitiquití tiquitiquití
Tiquitiquití tiquitiquití tiquitiquití

|------7----------------7------7------|
|----6---6----6----6---------6---6----|
|--7--------7----7----7----7----------|
|-------------------------------------|
|-------------------------------------|
|-------------------------------------|

Mentiroso, mentí, mentí, mentí, mentiroso

|----------------------------------------------|
|---2--2-2-3--5-7-7/10—-10-10-10-10-9-10-9--7--|
|----------------------------------------------|
|----------------------------------------------|
|---0--0-0-2—-4-6-6/9---9--9--9--9--8-9--8--6--|
|----------------------------------------------|

|----------------------------------------------|
|-3--3-3-5--5-/7---8-8-8-8-7-8-7--5------------|
|----------------------------------------------|
|----------------------------------------------|
|-2--2-2-4--4-/6---7-7-7-7-6-7-6--4------------|
|----------------------------------------------|

Mi vida creyendo, creyéndote lisonjero

|----------------------------------------------|
|---2--2-2-3--5-7-7/10—-10-10-10-10-9-10-9--7--|
|----------------------------------------------|
|----------------------------------------------|
|---0--0-0-2—-4-6-6/9---9--9--9--9--8-9--8--6--|
|----------------------------------------------|

|----------------------------------------------|
|-3--3-3-5--5-/7---8-8-8-8-7-8-7--5------------|
|----------------------------------------------|
|----------------------------------------------|
|-2--2-2-4--4-/6---7-7-7-7-6-7-6--4------------|
|----------------------------------------------|

Mi vida de verte, de verte tan embustero

|-----------------------------------------------|
|-3--3-3-5--5-7-/10--10-10-10-10-9-10--9--------|
|-----------------------------------------------|
|-----------------------------------------------|
|-2--2-2-4--4-6-/9---9--9--9--9--8-9---8--------|
|-----------------------------------------------|

|-----------------------------------------------|
|-10-10-9-10--9---10-10-9-10---/-3--------------|
|-----------------------------------------------|
|-----------------------------------------------|
|-9--9--8-9---8---9--9--8-9----/2---------------|
|-----------------------------------------------|

:/Si, ay ay ay/:

|-----------------------------------------------|
|------6-----6-----6/2-----2-----2/5------------|
|-----------------------------------------------|
|-----------------------------------------------|
|--5-5---5-5---5-5-----1-1---1-1----------------|
|-----------------------------------------------|

Mi vida, mi vida yo te quise

|-----------------------------------------------|
|------5-----5-----5/2-----2-----2-----2~-------|
|-----------------------------------------------|
|-----------------------------------------------|
|--4-4---4-4---4-4-----1-1---1-1---1-1----------|
|-----------------------------------------------|

Veleido, veleido, veleidoso

|-------0-----0--7-----------0-----0--x---------|
|------6-----6-----6--------6-----6-----6-------|
|-----7-----7--------7-----7-----7--------7-----|
|----7-----7--------------7-----7---------------|
|---0-----0-----0--------0-----0-----x----------|
|-----------------------------------------------|

|-------0-----7-----0-----7-----0-----7---------|
|------6-----6-----6-----6-----6-----6----------|
|-----7-----7-----7-----7-----7-----7-----------|
|----7-----7-----7-----7-----7-----7------------|
|---0-----0-----0-----0-----0-----0-------------|
|-----------------------------------------------|

|------7-------------7-----7------|
|----6---6---6---6-------6---6----|
|--7-------7---7---7---7----------|
|---------------------------------|
|---------------------------------|
|---------------------------------|

|-------0-----0--7-----------0-----0--7---------|
|------6-----6-----6--------6-----6-----6-------|
|-----7-----7--------7-----7-----7--------7-----|
|----7-----7--------------7-----7---------------|
|---0-----0-----0--------0-----0-----0----------|
|-----------------------------------------------|

Tiquitiquití tiquitiquití mentiroso
Tiquitiquití tiquitiquití mentiroso

|-------0-----0----3---------0-----0----3-------|
|------4-----4-------4------4-----4-------4-----|
|-----5-----5----5---------5-----5----5---------|
|----5-----5--------------5-----5---------------|
|---0-----0-----0--------0-----0-----0----------|
|-----------------------------------------------|

Tiquitiquití tiquitiquití fastidioso
Tiquitiquití tiquitiquití veleidoso

|-----------------------------------------------|
|--6--6--5-6--5-----6--6--5-6--5----------------|
|--7--7--6-7--6-----7--7--6-7--6----------------|
|-----------------------------------------------|
|-----------------------------------------------|
|-----------------------------------------------|

Prenda del alma... Si ay ay ay

|--------------------------------------------------|
|--6-----6-----5-----5-----6-----6-----5-----5-----|
|--7-----7-----6-----6-----7-----7-----6-----6-----|
|--7-----7-----6-----6-----7-----7-----6-----6-----|
|----0-0---0-0---0-0---0-0---0-0---0-0---0-0-------|
|--------------------------------------------------|

Prenda del alma... Si ay ay ay

|------0-----0--7---------0-----7-----0-----7-----0-----7--|
|-----6-----6-----6------6-----6-----6-----6-----6-----6---|
|----7-----7--------7---7-----7-----7-----7-----7-----7----|
|---7-----7------------7-----7-----7-----7-----7-----7-----|
|--0-----0-----0------0-----0-----0-----0-----0-----0------|
|----------------------------------------------------------|

Tiquitiquití tiquitiquití mentiroso
:/Tiquitiquití tiquitiquití tiquitiquití/:

|------7----------------7------7------|
|----6---6----6----6---------6---6----|
|--7--------7----7----7----7----------|
|-------------------------------------|
|-------------------------------------|
|-------------------------------------|

Mentiroso, mentí, mentí, mentí, mentiroso

|------------------------------------------------|
|------6-----8----10-10-------6-----8----10-10---|
|----5-----7-----9---9------5-----7-----9---9----|
|------------------------------------------------|
|------------------------------------------------|
|--0-----0-----0-----0----0-----0-----0-----0----|

|------7------9----------------7------9-----------|
|----8-----10------10-8------8-----10------10-8---|
|-----------------9---7-------------------9---7---|
|-------------------------------------------------|
|-------------------------------------------------|
|--0-----0------0-----0----0-----0------0-----0---|

|----------------------------------------------------|
|-----10-8---8-8~-8-8-8-8/10—-10---8-8~-8-8-/10------|
|----9---7---7-7~-7-7-7-7/9----9---7-7~-7-7-/9-------|
|----------------------------------------------------|
|----------------------------------------------------|
|--0-----0---------------------0---------------------|

|------------------------------------------------|
|------6-----8----10-10-------6-----8----10-10---|
|----5-----7-----9---9------5-----7-----9---9----|
|------------------------------------------------|
|------------------------------------------------|
|--0-----0-----0-----0----0-----0-----0-----0----|

¿Dónde estás prenda querida, que no escuchas mi lamento?

|------7------9----------------7------9-----------|
|----8-----10------10-8------8-----10------10-8---|
|-----------------9---7-------------------9---7---|
|-------------------------------------------------|
|-------------------------------------------------|
|--0-----0------0-----0----0-----0------0-----0---|

Tal vez te habrás olvidado, que hiciste un juramento

|----------------------------------------------------|
|-----10-8---8-8~-8-8-8-8/10—-10---8-8~-8-8-/10------|
|----9---7---7-7~-7-7-7-7/9----9---7-7~-7-7-/9-------|
|----------------------------------------------------|
|----------------------------------------------------|
|--0-----0---------------------0---------------------|

Juramento, mento. Juramento sí...

|------------------------------------------------|
|------6-----8----10-10-------6-----8----10-10---|
|----5-----7-----9---9------5-----7-----9---9----|
|------------------------------------------------|
|------------------------------------------------|
|--0-----0-----0-----0----0-----0-----0-----0----|

En qué quedó tu palabra, ingrato mal avenido

|------7------9----------------7------9-----------|
|----8-----10------10-8------8-----10------10-8---|
|-----------------9---7-------------------9---7---|
|-------------------------------------------------|
|-------------------------------------------------|
|--0-----0------0-----0----0-----0------0-----0---|

¿Por qué habré puesto los ojos, en amor tan dividido?

|----------------------------------------------------|
|-----10-8---8-8~-8-8-8-8/10—-10---8-8~-8-8-/10------|
|----9---7---7-7~-7-7-7-7/9----9---7-7~-7-7-/9-------|
|----------------------------------------------------|
|----------------------------------------------------|
|--0-----0---------------------0---------------------|

Dividido, dido. Dividido, sí...

|------------------------|
|------3---3-5---5-5/3---|
|----3---3---5-5---5/3---|
|------------------------|
|------------------------|
|--0---------------------|

|--------------------------------------------------|
|--3-3-3-3-3-3/5-5-5-5/3---3-3-3-3-3-3/5-5-5-5/3---|
|--3-3-3-3-3-3/5-5-5-5/3---3-3-3-3-3-3/5-5-5-5/3---|
|--------------------------------------------------|
|--------------------------------------------------|
|--------------------------------------------------|

Tanto que me decía la gente, gavilán, gavilán tiene garras

|----------------------------------------------------------|
|--7-7-7-7-7-7/10-10-10-10/7---7-7-7-7-7-7/10-10-10-10/7---|
|--7-7-7-7-7-7/10-10-10-10/7---7-7-7-7-7-7/10-10-10-10/7---|
|----------------------------------------------------------|
|----------------------------------------------------------|
|----------------------------------------------------------|

Yo sola seguí monte arriba, gavilán me sacó las entrañas

|----------------------------------------------------|
|--3-3-3-3-3-3/5-5-5-5--1---3-3-3-3-3-3/5-5-5-5--1---|
|--3-3-3-3-3-3/5-5-5-5--1---3-3-3-3-3-3/5-5-5-5--1---|
|----------------------------------------------------|
|----------------------------------------------------|
|----------------------------------------------------|

En el monte quedé abandonada, me confunden los siete elementos

|-------0------0------0------0---|
|-----3------3------3------3-----|
|---3------3------3------3-------|
|--------------------------------|
|--------------------------------|
|--------------------------------|

:/Ay de mí, ay de mí/:

|----------------------------------------------------|
|--3-3-3-3-3-3/5-5-5-5/3---3-3-3-3-3-3/5-5-5-5--1----|
|--3-3-3-3-3-3/5-5-5-5/3---3-3-3-3-3-3/5-5-5-5--1----|
|----------------------------------------------------|
|----------------------------------------------------|
|----------------------------------------------------|

De mi llanto se espantan las sombras, mis gemidos confunden al viento

|-------0------0------0------0---|
|-----3------3------3------3-----|
|---3------3------3------3-------|
|--------------------------------|
|--------------------------------|
|--------------------------------|

:/Ay de mí, ay de mí/:

|---------------1----------------------1----------|
|-----0---2---0-0--2-2-2-----0---2---0-0--2-2-2---|
|---0---2---0---0--2-2-2---0---2---0---0--2-2-2---|
|-------------------------------------------------|
|-------------------------------------------------|
|---------------0----------------------0----------|

|-----------------------------------------------------------|
|-------------x---2-------------2--------------0-2/3--3-----|
|---0---2---0-x-0-----0---2---0-0--------0-2/3-0-2/3--3—-2--|
|-0---2---0---------0---2---0------0-2/3-0-2/3-----------2--|
|----------------------------------0-2/3--------------------|
|-----------------------------------------------------------|

|---------------1----------------------1----------|
|-----0---2---0-0--2-2-2-----0---2---0-0--2-2-2---|
|---0---2---0---0--2-2-2---0---2---0---0--2-2-2---|
|-------------------------------------------------|
|-------------------------------------------------|
|---------------0----------------------0----------|

:/Gavi, gavi, gavi, ga vilán, ga/:

|-----------------------------------------------------------|
|--------------2---------------2---------------0-2/3--3-----|
|----0---2---0-0-----0---2---0-0---------0-2/3-0-2/3--3—-2--|
|--0---2---0-------0---2---0-------0-2/3-0-2/3-----------2--|
|----------------------------------0-2/3--------------------|
|-----------------------------------------------------------|

:/Gavi, gavi, gavi, ga/: Gavilán, gavilán, gavilán, ga vi

|---------------1----------------------1----------|
|-----0---2---0-0--2-2-2-----0---2---0-0--2-2-2---|
|---0---2---0---0--2-2-2---0---2---0---0--2-2-2---|
|-------------------------------------------------|
|-------------------------------------------------|
|---------------0----------------------0----------|

:/Gavi, gavi, gavi, ga vilán, ga/:

|-----------------------------------------------------------|
|--------------2---------------2---------------0-2/3--3-----|
|----0---2---0-0-----0---2---0-0---------0-2/3-0-2/3--3—-2--|
|--0---2---0-------0---2---0-------0-2/3-0-2/3-----------2--|
|----------------------------------0-2/3--------------------|
|-----------------------------------------------------------|

:/Gavi, gavi, gavi, ga/: Gavilán, gavilán, gavilán, ga vi

|-----------------------------------------|
|---------3-2----------------3-2----------|
|---0-2-0-3-2-0-2-3----0-2-0-3-2-0-2-3----|
|--0-2-0------0-2-3---0-2-0------0-2-3----|
|-----------------------------------------|
|-----------------------------------------|

|---------3-2----------------3-2----------|
|---0-2-0-3-2-0-2-3----0-2-0-3-2-0-2-3----|
|--0-2-0------0-2-3---0-2-0------0-2-3----|
|-----------------------------------------|
|-----------------------------------------|
|-----------------------------------------|

|-----------------------------------------|
|-----------------------------------------|
|---------3-2----------------3-2----------|
|---0-2-0-3-2-0-2-3----0-2-0-3-2-0-2-3----|
|--0-2-0------0-2-3---0-2-0------0-2-3----|
|-----------------------------------------|

|------------------|-------------------------------------|
|--------3-2-------|--------3-2---------------3-2--------|
|--0-2-0-3-2-0-2-3-|--0-2-0-3-2-0-2-3---0-2-0-3-2-0-2-3--|
|-0-2-0------0-2-3-|-0-2-0------0-2-3--0-2-0------0-2-3—-|
|------------------|-------------------------------------|
|------------------|-------------------------------------|

:/Viene, viene, viene, viene el gavilán/:

|-----------------------------------------|
|-----------------------------------------|
|---------3-2----------------3-2----------|
|---0-2-0-3-2-0-2-3----0-2-0-3-2-0-2-3----|
|--0-2-0------0-2-3---0-2-0------0-2-3----|
|-----------------------------------------|

:/Truenos suenan ya/:

|---------3-2----------------3-2----------|
|---0-2-0-3-2-0-2-3----0-2-0-3-2-0-2-3----|
|--0-2-0------0-2-3---0-2-0------0-2-3----|
|-----------------------------------------|
|-----------------------------------------|
|-----------------------------------------|

Tengo donde estar. Viene, viene, yo no tengo donde estar.

|----3-2-------------------3-2----------|
|--0-3-2-0-2-3-----------0-3-2-0-2-3----|
|--0-----0-2-3----0-0----0-----0-2-3----|
|-----------------3-3-------------------|
|-----------------4-4-------------------|
|-----------------3-3-------------------|

:/Yo no tengo donde estar/:

Sol5-7 Do5-7 Mi5-6

|-------|-------|-------|
|-------|-------|---2---|
|-------|---3---|---3---|
|---3---|---4---|---2---|
|---4---|---3---|-------|
|---3---|-------|-------|

Sol5-7 Do5-7 Mi5-6 Sol5-7

Sol5-7
:/Gavilán, gavilán, que me muero gavilán:/
Do5-7
:/Gavilán, gavilán, que me muero gavilán:/
Mi5-6
:/Gavilán, gavilán, que me muero gavilán:/
Do5-7 Sol5-7
Gavi gavilán, que me muero gavilán, que me muero gavilán

Gavilán, gavilán, gavi gavi lán, gavi gavi lán,

Gavi gavi lán, gavi gavi lán, gavilán, gavilán, gavilán...

:/Gavilán, gavilán, que me muero gavilán:/
Do5-7
:/Gavilán, gavilán, que me muero gavilán:/
Mi5-6
:/Gavilán, gavilán, gavi:/

Gavi, gavi, gavi, gavi...

|--------------------------------------------------|
|--3-3-3-3-3-3/5-5-5-5/3---3-3-3-3-3-3/5-5-5-5/3---|
|--3-3-3-3-3-3/5-5-5-5/3---3-3-3-3-3-3/5-5-5-5/3---|
|--------------------------------------------------|
|--------------------------------------------------|
|--------------------------------------------------|

Tanto que me decía la gente, gavilán, gavilán tiene garras

|----------------------------------------------------------|
|--7-7-7-7-7-7/10-10-10-10/7---7-7-7-7-7-7/10-10-10-10/7---|
|--7-7-7-7-7-7/10-10-10-10/7---7-7-7-7-7-7/10-10-10-10/7---|
|----------------------------------------------------------|
|----------------------------------------------------------|
|----------------------------------------------------------|

Yo sola seguí monte arriba, gavilán me sacó las entrañas

|----------------------------------------------------|
|--3-3-3-3-3-3/5-5-5-5--1---3-3-3-3-3-3/5-5-5-5--1---|
|--3-3-3-3-3-3/5-5-5-5--1---3-3-3-3-3-3/5-5-5-5--1---|
|----------------------------------------------------|
|----------------------------------------------------|
|----------------------------------------------------|

En el monte quedé abandonada, me confunden los siete elementos

|-------0------0------0------0---|
|-----3------3------3------3-----|
|---3------3------3------3-------|
|--------------------------------|
|--------------------------------|
|--------------------------------|

:/Ay de mí, ay de mí/:

|-------0-----0--7-----------0-----0--7---------|
|------6-----6-----6--------6-----6-----6-------|
|-----7-----7--------7-----7-----7--------7-----|
|----7-----7--------------7-----7---------------|
|---0-----0-----0--------0-----0-----0----------|
|-----------------------------------------------|

|-------0-----0----3---------0-----0----3-------|
|------4-----4-------4------4-----4-------4-----|
|-----5-----5----5---------5-----5----5---------|
|----5-----5--------------5-----5---------------|
|---0-----0-----0--------0-----0-----0----------|
|-----------------------------------------------|

|-------0-----0--7-----------0-----0--7---------|
|------6-----6-----6--------6-----6-----6-------|
|-----7-----7--------7-----7-----7--------7-----|
|----7-----7--------------7-----7---------------|
|---0-----0-----0--------0-----0-----0----------|
|-----------------------------------------------|

Tiquitiquití tiquitiquití mentiroso
Tiquitiquití tiquitiquití veleidoso

|-------0-----7-----0-----7-----0-----7---------|
|------6-----6-----6-----6-----6-----6----------|
|-----7-----7-----7-----7-----7-----7-----------|
|----7-----7-----7-----7-----7-----7------------|
|---0-----0-----0-----0-----0-----0-------------|
|-----------------------------------------------|

:/Tiquitiquití tiquitiquití tiquitiquití/:

|------7----------------7------7------|
|----6---6----6----6---------6---6----|
|--7--------7----7----7----7----------|
|-------------------------------------|
|-------------------------------------|
|-------------------------------------|

Mentiroso, mentí, mentí, mentí, mentiroso

|--------------1------------3-2----------|
|----0---2---0-0--0-2-3---0-3-2-0-2-3~---|
|--0---2---0---0--0-2-3---0-----0-2-3~---|
|----------------------------------------|
|----------------------------------------|
|--------------0-------------------------|

...donde estar. Yo no tengo donde estar.

Sol5-7 Do5-7 Mi5-6

Riri!

correct these lyrics

Top 25 tabs of the month : 1) Dashboard Confessional - What I Wanted To Say Was, 2) Krewella - Alive, 3) Wax Fang - Majestic, 4) Emilys Army - Loch Lomond, 5) Black Keys - Summertime Blues, 6) Daft Punk - Beyond, 7) Jesus Culture - The Anthem, 8) Misc Unsigned Bands - The Slakadeliqs - Love Controls The Sun Feat Justin Nozuka, 9) Johnny Hobo And The Freight Trains - Im So Punk I Hate Punk, 10) John Butler Trio - Take Me, 11) En Vogue - Free Your Mind, 12) Andreas Et Nicolas - Je Deteste Le Sexe, 13) Jason Castro - Hallelujah, 14) Boyce Avenue - Your Biggest Fan, 15) Bernhoft - Cmon Talk, 16) Black Keys - Hold Me In Your Arms, 17) Heaven Shall Burn - Dying In Silence, 18) Biffy Clyro - Trumpet Or Tap, 19) Joe Satriani - Ill Put A Stone On Your Cairn, 20) Volbeat - Room 24, 21) Steven Wilson - The Watchmaker, 22) High On Fire - Samsara, 23) Hollywood Undead - Lump Your Head, 24) Jan Hegenberg - Strke Und Ehre, 25) Iron Maiden - Coming Home,
© TmCod 2010
All tabs are property and copyright of their owners. All tabs provided for educational purposes only
Copyright © www.tabspedia.com Please read our Privacy policy