Search
Home
Add Tabs
Biography
Guestbook
News
Contact
Links
Forum
Authors by letter: A B C D E F G H I J K L M N O P Q R S T U V W X Y Z Other 
LOGIN
Username
Password
Poll of the day
Do you like fresh or processed food ?
Fresh food.
Processed food.
LINKS




Largo Tour - Chancho En Piedra Tabs

Home >> Artists starting with C >> Chancho en Piedra Tabs 

Largo Tour - Chancho En Piedra

Added by Administrator on 2011-12-19 13:44:40


NOTAS:

MIm SIm LA SOL
1|-7----7-----5----3---|
2|-8----7-----5----3---|
3|-9----7-----6----4---|
4|-9----9-----7----5---|
5|-7----9-----7----5---|
6|------7-----5----3---|


Asi empieza la canción (RIFF 1).
En realidad lo toca el bajo pero de todas maneras lo pongo.
Tambien lo toca en medio de los coros.

RIFF 1
1|-------------|
2|-------------|
3|-------------|
4|-------------|
5|---------2-2-|
6|-0-0-3-3-----|

RIFF 2

1|-----------|
2|-----------|
3|-----------|
4|-----------|
5|-5h7-5h7~~-|
6|-----------|

intro:

SIm LA MIm
1|-----------------------------------------------------------------|
2|------7--10~------7-10~------------------------------------------|
3|-8-8----------8-8-----------6-9~------6-9~------9-12~-----9-12~--|
4|------------------------7-7-------7-7-------9-9-------9-9--------|
5|-----------------------------------------------------------------|
6|-----------------------------------------------------------------|

SIm LA MIm
1|------------------------------------------------|
2|------7--10~------7-10~-------------------------|
3|-8-8----------8-8-----------6-9~------6-9~-9~~--|
4|------------------------7-7-------7-7-----------|
5|------------------------------------------------|
6|------------------------------------------------|


MIm
A esta hora justamente a esta hora
SIm LA
en que tu cerebro empieza a cabecear
MIm
con la ultima telenovela
SIm LA
quisiera sacarte a caminar
MIm
en un largo tour.

SOL LA MIm (RIFF 1)
por Pudahuel y La Bandera
SOL LA MIm
por Pudahuel y por La Legua

SOL LA MIm
y verias la vida tal como es (RIFF 2)
SOL LA MIm
y verias la vida tal como es


Y asi sucesivamente.

Disfruten el tema!!!!

correct these lyrics

Top 25 tabs of the month : 1) Dashboard Confessional - What I Wanted To Say Was, 2) Krewella - Alive, 3) Wax Fang - Majestic, 4) Emilys Army - Loch Lomond, 5) Black Keys - Summertime Blues, 6) Daft Punk - Beyond, 7) Jesus Culture - The Anthem, 8) Misc Unsigned Bands - The Slakadeliqs - Love Controls The Sun Feat Justin Nozuka, 9) Johnny Hobo And The Freight Trains - Im So Punk I Hate Punk, 10) John Butler Trio - Take Me, 11) En Vogue - Free Your Mind, 12) Andreas Et Nicolas - Je Deteste Le Sexe, 13) Jason Castro - Hallelujah, 14) Boyce Avenue - Your Biggest Fan, 15) Bernhoft - Cmon Talk, 16) Black Keys - Hold Me In Your Arms, 17) Heaven Shall Burn - Dying In Silence, 18) Biffy Clyro - Trumpet Or Tap, 19) Joe Satriani - Ill Put A Stone On Your Cairn, 20) Volbeat - Room 24, 21) Steven Wilson - The Watchmaker, 22) High On Fire - Samsara, 23) Hollywood Undead - Lump Your Head, 24) Jan Hegenberg - Strke Und Ehre, 25) Iron Maiden - Coming Home,
© TmCod 2010
All tabs are property and copyright of their owners. All tabs provided for educational purposes only
Copyright © www.tabspedia.com Please read our Privacy policy