Search
Home
Add Tabs
Biography
Guestbook
News
Contact
Links
Forum
Authors by letter: A B C D E F G H I J K L M N O P Q R S T U V W X Y Z Other 
LOGIN
Username
Password
Poll of the day
Do you use any gaming websites?
Yes
No
LINKS




Volver Contigo - Karatula Tabs

Home >> Artists starting with K >> Karatula Tabs 

Volver Contigo - Karatula

Added by Administrator on 2011-09-13 10:06:15


Intro:
A E FA#m
Volver otra vez contigo
D E A
Me lo pregunto mil veces yo mismo


10/12-------------------14-12-14-12~--10/12-12-12-12-10-9~--
------10-10~--10--10-10-------------------------------------
------------------------------------------------------------
------------------------------------------------------------
------------------------------------------------------------
------------------------------------------------------------

9-9-9-10-12---------------10-9-10---------------------------
------------10~--10-10-10---------12~--12-12-12-12-10-9~----
------------------------------------------------------------
------------------------------------------------------------
------------------------------------------------------------
------------------------------------------------------------

------------------10/12~--17~~------------------------------
-9-10-12--9-10-9~-------------------------------------------
------------------------------------------------------------
------------------------------------------------------------
------------------------------------------------------------
------------------------------------------------------------

A E F#m
Volver otra vez contigo
D E A
Me lo pregunto mil veces yo mismo
A E F#m
Sentir otra vez contigo
D E A
Las cosas lindas que juntos vivimos


D E
Yo que pensé que te había olvidado
C#m F#m
Al verte otra vez al estar a tu lado
Bm E
Al sentir tu calor y tus labios de miel
A E
Siento deseos de volver

D E
Tengo miedo de tenerte en mis brazos
C#m F#m
Otra vez y volverte a besar
Bm E
Y al sentir tus caricias que me queman la piel
A E
Siento deseos de volver

D E
Tengo miedo de tenerte en mis brazos
C#m F#m
Otra vez y volverte a besar
Bm E
Y al sentir tus caricias y esos labios de miel
A E
Volverme a enamorar

solo

17-12----12-17-12----17/16-12----12-16-12----16/14-10----
------14----------14----------14----------14-------------
---------------------------------------------------------
---------------------------------------------------------
---------------------------------------------------------
---------------------------------------------------------

---10-14-10----14/16-12----12-16-12----16/17-12----12-17-12-
12----------12----------14----------14----------14----------
------------------------------------------------------------
------------------------------------------------------------
------------------------------------------------------------
------------------------------------------------------------


---17/16-12----12-16-12----16/14-10----10-14-10----14/16-
14----------14----------14----------12----------12-------
---------------------------------------------------------
---------------------------------------------------------
---------------------------------------------------------
---------------------------------------------------------

12----12-16-12----16/17~~--------------------------------
---14----------14----------------------------------------
---------------------------------------------------------
---------------------------------------------------------
---------------------------------------------------------
---------------------------------------------------------

A E F#m
Volver otra vez contigo
D E A
Me lo pregunto mil veces yo mismo
A E F#m
Sentir otra vez contigo
D E A
Las cosas lindas que juntos vivimos


D E
Yo que pensé que te había olvidado
C#m F#m
Al verte otra vez al estar a tu lado
Bm E
Al sentir tu calor y tus labios de miel
A E
Siento deseos de volver

D E
Tengo miedo de tenerte en mis brazos
C#m F#m
Otra vez y volverte a besar
Bm E
Y al sentir tus caricias que me queman la piel
A E
Siento deseos de volver

D E
Tengo miedo de tenerte en mis brazos
C#m F#m
Otra vez y volverte a besar
Bm E
Y al sentir tus caricias y esos labios de miel
A E
Volverme a enamorar

10/12-------------------14-12-14-12~--10/12-12-12-12-10-9~--
------10-10~--10--10-10-------------------------------------
------------------------------------------------------------
------------------------------------------------------------
------------------------------------------------------------
------------------------------------------------------------

9-9-9-10-12---------------10-9-10---------------------------
------------10~--10-10-10---------12~--12-12-12-12-10-9~----
------------------------------------------------------------
------------------------------------------------------------
------------------------------------------------------------
------------------------------------------------------------

------------------------------------------------------------
9-10-12--9-10-9~~-------------------------------------------
------------------------------------------------------------
------------------------------------------------------------
------------------------------------------------------------
------------------------------------------------------------

correct these lyrics

Top 25 tabs of the month : 1) Dashboard Confessional - What I Wanted To Say Was, 2) Krewella - Alive, 3) Wax Fang - Majestic, 4) Emilys Army - Loch Lomond, 5) Black Keys - Summertime Blues, 6) Daft Punk - Beyond, 7) Jesus Culture - The Anthem, 8) Misc Unsigned Bands - The Slakadeliqs - Love Controls The Sun Feat Justin Nozuka, 9) Johnny Hobo And The Freight Trains - Im So Punk I Hate Punk, 10) John Butler Trio - Take Me, 11) En Vogue - Free Your Mind, 12) Andreas Et Nicolas - Je Deteste Le Sexe, 13) Jason Castro - Hallelujah, 14) Boyce Avenue - Your Biggest Fan, 15) Bernhoft - Cmon Talk, 16) Black Keys - Hold Me In Your Arms, 17) Heaven Shall Burn - Dying In Silence, 18) Biffy Clyro - Trumpet Or Tap, 19) Joe Satriani - Ill Put A Stone On Your Cairn, 20) Volbeat - Room 24, 21) Steven Wilson - The Watchmaker, 22) High On Fire - Samsara, 23) Hollywood Undead - Lump Your Head, 24) Jan Hegenberg - Strke Und Ehre, 25) Iron Maiden - Coming Home,
© TmCod 2010
All tabs are property and copyright of their owners. All tabs provided for educational purposes only
Copyright © www.tabspedia.com Please read our Privacy policy