Search
Home
Add Tabs
Biography
Guestbook
News
Contact
Links
Forum
Authors by letter: A B C D E F G H I J K L M N O P Q R S T U V W X Y Z Other 
LOGIN
Username
Password
Poll of the day
Do you think it is lame to use your first and last name for your email address?
No, it's hard to find a name that isn't taken so sometimes you have to
Yes, it's not very creative anyway
LINKS




Most searched "Anibal Arias" tabs

El Día Que Me Quieras - Anibal Arias Tabs

Home >> Artists starting with A >> Anibal Arias Tabs 

El Día Que Me Quieras - Anibal Arias

Added by Administrator on 2011-04-15 11:01:57


e|-5h2h0h2h0----|5h2h0h2h0----|---------|---------|------0--|
B|------—---2h0-|-----—---2h0-|-2-2-2-2-|-1-1-1-1-|----2--2-|
G|-------------2|------------2|4-4-4-4--|3-3-3-3--|--0--0---|
D|---------4----|--------4----|4--------|3--------|-2-2-----|
A|--------------|-------------|---------|---------|0--------|
D|-0------------|0------------|---------|---------|---------|

e|-5-------|-----5/9h|7-2h5h5h5-2h0h|0----------|5---------0-|-5-3h5
B|-2-------|----7----|----3---3-----|--3h3h3--3h|2-------2---|-2----
G|-0-------|---7-----|----2---2-----|--4---1-4--|0-----0-----|-0----
D|---------|-7-------|----4---4-----|--4---0----|----2-------|------
A|-0-0(12)-|---------|----0---------|2----------|0h4---------|-0----
D|---------|---------|0-------------|------2----|------------|------

e|3-2h3h|2-2h0h0----|2-0---------|0-7-5-0-----|-0------5/9h|7-2h5h5
B|2-----|--3-----3--|--0h3h3-----|2-8-6-2-2-3-|-2-----7----|----3--
G|3-----|--4-----4h4|--1---1-3h4h|0-------2-1-|-0----7-----|----2--
D|2-----|--4-----4--|--0---0-----|------------|----7-------|----4--
A|------|2-----0----|------------|0-----------|-0----------|----0--
D|------|-----------|2-----2-----|------------|------------|0------

e|5-4h2h|5-5h5h5-4h2h|9---9h7--7h|6-9h10h9----|9--8h7--7|
B|3-----|--4---4-----|--10----8--|7------7-6h7|--7----7-|
G|2-----|--2---2-----|-9-----7--0|6------9----|-8----8--|
D|4-----|------------|--7-----5--|4------8----|--7----7-|
A|------|3-----3-----|-7-----5---|4-----------|-9----9--|
D|------|------------|7-----5----|4-----------|7----7---|

e|--7h9h7--0h|7--7h6--6|--9--10-12-----|-0-------|---2h2h2h0h|3-----
B|--9---9-4--|--5----7-|--10-9--8--2-3-|-2-------|---2-------|------
G|--7---7----|-6----7--|-----------2-1-|-0-------|-2-3-------|------
D|-----------|--5----6-|---------------|---------|---5-------|---0h4
A|7-----7----|-7----8--|0--------------|-0-0(12)-|---0-------|--0---
D|-----------|5----6---|---------------|---------|-----------|0-----

e|2------|---2h2h0h0h2h|0--------|-------------|7----7-----|---7h7
B|3------|-----2-------|---4h3-2-|---3-3h3h3h3h|----0----0-|-----7
G|2------|-----0-------|-----4---|-5---5-------|---0----0--|-----5
D|--0----|-----2-------|--4--4---|-4---4-------|--0----0---|------
A|---4h2h|1------------|2--------|-0---0-------|-----------|-6----
D|-------|-------------|---------|-0-----------|5----------|------

e|5h8h7h|7---3h7h3h0---|---3/7h7h5---|7---6h5---5|--3h3h2---|0-0---2
B|--7---|---5--8h5h0h0-|----------4h5|---5-------|----2--1h2|---4h3-
G|--5---|--4---------0h|0------------|--6------6-|----0-----|-----4-
D|------|-0------------|2------------|--5-----5--|----2-----|-4---4-
A|------|7-------------|-------------|------0----|1---------|2------
D|------|--------------|-------------|5----------|----------|-------

e|7h8h|10---0------|2-----2--2h5h|4---0-------|5------3h3h3h0h3h|5-------
B|7---|7--3h3h3h2h3|---0h3-3h3h7h|3—3h0h3h2h3h|2------3---3-----|2-5(17)-
G|7---|7----4------|-1h1h4-------|4---1-------|0---2--0---0-----|0-------
D|----|-----4------|-0-----4-----|----0-------|---2-------------|--------
A|----|-----0------|------2------|--2---------|0h4--1-----1-----|0-------
D|----|------------|2------------|2-----------|-----------------|--------

e|-5(17)-------|---------2h2h2h0h|3-----2------|---2h2h0h0h2h|0--------|
B|-------5(17)-|---------2-------|------3------|-----2-------|---4h3h2-|
G|-------------|-2(14)-2-3-------|------2------|-----0-------|-----4---|
D|-------------|---------5-------|---0h4--0----|-----2-------|--4--4---|
A|-------------|---------0-------|--0------4h2h|1------------|2--------|
D|-------------|-----------------|0------------|-------------|---------|

e|------------|7----7----|---7h7h5h8h7h|7---3h7h3h0---|--7h7h6h9-h7h|7--7
B|---3-3h3h3h3|----0----0|-----7---7---|---5--8h5h0h0-|--8h8h7h10h8-|--5-
G|-5---5------|---0----0-|-----5---5---|--4---------0h|0------------|-6--
D|-4---4------|--0----0--|-------------|-0------------|2-9h9h8h11h9-|--4-
A|-0---0------|----------|6------------|7-------------|-------------|-4--
D|-0----------|5---------|-------------|--------------|-------------|4---

e|6--6|---5h5h4h7h5h|5----3-0h2h|3-3h5h3----|--5-9-7-|-5---|-2-----3-|-0---
B|--5-|-----4---4---|------0----|3---5--3h5h|7-7-6-7-|-7---|---3-----|-2---
G|-6--|-----4---4---|-----0-----|3---3------|7---7-7-|-----|-2---4---|-0---
D|--4-|-----4-------|--2h4------|5----------|7-7-6-6-|-7---|---4-5---|-----
A|-4--|6--------0---|-2---------|----4------|9-------|-----|---------|-0-1-
D|4---|-------------|2----------|-----------|0-------|-----|---------|-----

e|-0-0-|------2h5/|9h8h7h6h5-------|
B|-2-2-|-3-2h3----|--------6-------|
G|-0-0-|-2--------|--------6-------|
D|-----|-4--------|--------7-------|
A|-2-4-|----------|----------0(12)-|
D|-----|-0--------|----------------|

e|-----5/9h|7-5h5h5-2h0h|0----------|5---------0-|-5-3h5
B|----7----|--3---3-----|--3h3h3--3h|2-------2---|-2----
G|---7-----|--2---2-----|--4---1-4--|0-----0-----|-0----
D|-7-------|--4---4-----|--4---0----|----2-------|------
A|---------|--0---------|2----------|0h4---------|-0----
D|---------|0-----------|------2----|------------|------

e|3-2h3h|2-2h0h0----|2-0---------|0-7-5-0-----|-0-----5/9h|7-5h5
B|2-----|--3-----3--|--0h3h3-----|2-8-6-2-2-3-|-2----7----|--3--
G|3-----|--4-----4h4|--1---1-3h4h|0-------2-1-|-0---7-----|--2--
D|2-----|--4-----4--|--0---0-----|------------|---7-------|--4--
A|------|2-----0----|------------|0-----------|-0---------|--0--
D|------|-----------|2-----2-----|------------|-----------|0----

e|5-4h2h|5-5h5h5-4h2h|9---9h7--7h|6-9h10h9----|9--8h7--7|
B|3-----|--4---4-----|--10----8--|7------7-6h7|--7----7-|
G|2-----|--2---2-----|-9-----7---|6------9----|-8----8--|
D|4-----|------------|--7-----5--|4------8----|--7----7-|
A|------|3-----3-----|-7-----5---|4-----------|-9----9--|
D|------|------------|7-----5----|4-----------|7----7---|

e|--7h9h7--0h|7--7h6--6|--9--10-12-----|-0-------|---2h2h2h0h|3-----
B|--9---9-4--|--5----7-|--10-9--8--2-3-|-2-------|---2-------|------
G|--7---7----|-6----7--|-----------2-1-|-0-------|-2-3-------|------
D|-----------|--5----6-|---------------|---------|---5-------|---0h4
A|7-----7----|-7----8--|0--------------|-0-0(12)-|---0-------|--0---
D|-----------|5----6---|---------------|---------|-----------|0-----

e|2------|---2h2h0h0h2h|0--------|-------------|7----7-----|---7h7
B|3------|-----2-------|---4h3-2-|---3-3h3h3h3h|----0----0-|-----7
G|2------|-----0-------|-----4---|-5---5-------|---0----0--|-----5
D|--0----|-----2-------|--4--4---|-4---4-------|--0----0---|------
A|---4h2h|1------------|2--------|-0---0-------|-----------|-6----
D|-------|-------------|---------|-0-----------|5----------|------

e|5h8h7h|7---3h7h3h0---|---3/7h7h5---|7---6h5---5|--3h3h2---|0-0---2
B|--7---|---5--8h5h0h0-|----------4h5|---5-------|----2--1h2|---4h3-
G|--5---|--4---------0h|0------------|--6------6-|----0-----|-----4-
D|------|-0------------|2------------|--5-----5--|----2-----|-4---4-
A|------|7-------------|-------------|------0----|1---------|2------
D|------|--------------|-------------|5----------|----------|-------

e|7h8h|10---0------|2-----2--2h5h|4---0-------|5------3h3h3h0h3h|5-
B|7---|7--3h3h3h2h3|---0h3-3h3h7h|3—3h0h3h2h3h|2------3---3-----|2-
G|7---|7----4------|-1h1h4-------|4---0-------|0---2--0---0-----|0-
D|----|-----4------|-0-----4-----|----0-------|---2-------------|--
A|----|-----0------|------2------|--2---------|0h4--1-----1-----|0-
D|----|------------|2------------|2-----------|-----------------|--

e|---2-2h2h0-3h3h3-3h3h3-3h3h3-3h3h3|-2h2h2-2h2h2-2h2h2-2h2h2|-2h2h2-2h2h2
B|---2------------------------------|3-----------------------|------------
G|-2-3------------------------2-----|------2-----------------|------------
D|---5------------------4-----------|------------4-----0-----|------2-----
A|---0------------0-----------------|------------------------|1-----------
D|----------0-----------------------|------------------------|------------

e|-2h2h2-2h2h2|-2h2h2-0h0h0-0h0h0-2h2h2|-0h0h0-0h0h0-0h0h0------|------
B|------2-----|------------------2-----|-------------------4h4h4|-3h3h3
G|0-----------|------------0-----------|------------4-----------|------
D|------------|------2-----------------|------4-----------4-----|------
A|------------|1-----------------------|2-----------------------|2-----
D|------------|------------------------|------------------------|------

e|------------------|------------------------|-0h0h0------------------|
B|-3h3h3-3h3h3-3h3h3|-3h3h3-3h3h3-3h3h3-3h3h3|-------3h3h3-2h2h2-3h3h3|
G|------4-----------|------------------2-----|------------------2-----|
D|4-----------4-----|------------4-----------|------------4-----------|
A|------------------|------0-----------------|------0-----------------|
D|------------------|0-----------------------|0-----------------------|

e|-7h7h7-7h7h7-7h7h7-7h7h7|-7h7h7-7h7h7-7h7h7-7h7h7|-7h7h7-7h7h7-7h7h7
B|------------------0-----|------------------0-----|------------7-----
G|------------0-----------|------------0-----------|------5-----------
D|------0-----------------|------0-----------------|------------------
A|------------------------|------------------------|6-----------------
D|5-----------------------|5-----------------------|------------------

e|-5h5h5|-8h8h8-8h8h8-8h8h8-7h7h7|-7h7h7-7h7h7-7h7h7-7h7h7|-7h7h7-7h7h7
B|------|------------7-----------|------------------------|8-----5-----
G|5-----|------5-----------5-----|------------9-----------|------------
D|------|------------------------|------9-----------9-----|------------
A|------|6-----------------------|7-----------------------|------------
D|------|------------------------|------------------------|------------

e|-7h7h7-7h7h7|-7h7h7-7h7h7-7h7h7-7h7h7|-7h7h7-6h6h6--9h9h9-7h7h7|-7h7h7
B|0-----8-----|------------------8-----|8-----7-----10-----8-----|------
G|------------|------------9-----------|-------------------------|------
D|------------|------9-----------------|-------------------------|------
A|------------|7-----------------------|-------------------------|------
D|------------|------------------------|-------------------------|4-----

e|-7h7h7-7h7h7-7h7h7|-7h7h7-7h7h7-7h7h7-7h7h7|-5h5h5-5h5h5-5h5h5-3h3h3|
B|------------------|5-----------------------|------------------------|
G|------------6-----|------6-----------------|------------4-----4-----|
D|------4-----------|------------4-----------|------4-----------------|
A|4-----------------|------------------4-----|6-----------------------|
D|------------------|------------------------|------------------------|

e|-7h7h7-7h7h7-7h7h7-5h5h5|-5h5h5-5h5h5-5h5h5-5h5h5|-3h3h3-3h3h3
B|4-----------------------|------------------------|------0-----
G|------4-----------------|------------------4-----|0-----------
D|------------4-----------|------------2-----------|------------
A|------------------4-----|------2-----------------|------------
D|------------------------|2-----------------------|------------

e|-3h3h3-3h3h3|-3h3h3-3h3h3-3h3h3-3h3h3|-5h5h5-3h3h3------------|
B|5-----0-----|------------------3-----|-------------3h3h3-5h5h5|
G|------------|------------3-----------|------------3-----------|
D|------------|------------------------|------5-----------5-----|
A|------------|------5-----------------|4-----------------------|
D|------------|5-----------------------|------------------------|

e|-2h2h2-2h2h2-2h2h2-5h5h5|-9h9h9-9h9h9--9h9h9-7h7h7|-5h5h5-5h5h5
B|------------------------|-------------------------|------------
G|------------------2-----|-------------------7-----|------------
D|------------4-----------|-------------------------|------4-----
A|------0-----------------|------8-----10-----------|0-----------
D|2-----------------------|6------------------------|------------

e|-5h5h5-5h5h5|-2h2h2-2h2h2------------|-------------------3h3h3|
B|------------|-------------3h3h3-3h3h3|-0h0h0-0h0h0-0h0h0------|
G|2-----------|------------4-----------|------------0-----4-----|
D|------4-----|------4-----------4-----|------0-----------------|
A|------------|2-----------------------|------------------------|
D|------------|------------------------|5-----------------------|

e|-0h0h0-0h0h0-0h0h0-0h0h0|-0h0h0-0h0h0-0h0h0-0h0h0|------------
B|------------------------|------------------------|-3h3h3-3h3h3
G|------0-----------0-----|------0-----------0-----|------------
D|------------------------|------------------------|------------
A|0-----------1-----------|2-----------4-----------|------0-----
D|------------------------|------------------------|2-----------

e|------|------------------|-------------------|------|---|
B|-3h3h3|-3h3h3-3h3h3-3h3h3|-3h3h3h-3h3h3-3h3h3|------|-3-|
G|------|4-----2-----------|4------2-----------|------|---|
D|4-----|------------4-----|-------------4-----|----4-|---|
A|------|------------------|-------------------|--0---|---|
D|------|------------------|-------------------|0-----|---|

correct these lyrics

Top 25 tabs of the month : 1) Dashboard Confessional - What I Wanted To Say Was, 2) Krewella - Alive, 3) Wax Fang - Majestic, 4) Emilys Army - Loch Lomond, 5) Black Keys - Summertime Blues, 6) Daft Punk - Beyond, 7) Jesus Culture - The Anthem, 8) Misc Unsigned Bands - The Slakadeliqs - Love Controls The Sun Feat Justin Nozuka, 9) Johnny Hobo And The Freight Trains - Im So Punk I Hate Punk, 10) John Butler Trio - Take Me, 11) En Vogue - Free Your Mind, 12) Andreas Et Nicolas - Je Deteste Le Sexe, 13) Jason Castro - Hallelujah, 14) Boyce Avenue - Your Biggest Fan, 15) Bernhoft - Cmon Talk, 16) Black Keys - Hold Me In Your Arms, 17) Heaven Shall Burn - Dying In Silence, 18) Biffy Clyro - Trumpet Or Tap, 19) Joe Satriani - Ill Put A Stone On Your Cairn, 20) Volbeat - Room 24, 21) Steven Wilson - The Watchmaker, 22) High On Fire - Samsara, 23) Hollywood Undead - Lump Your Head, 24) Jan Hegenberg - Strke Und Ehre, 25) Iron Maiden - Coming Home,
© TmCod 2010
All tabs are property and copyright of their owners. All tabs provided for educational purposes only
Copyright © www.tabspedia.com Please read our Privacy policy