Search
Home
Add Tabs
Biography
Guestbook
News
Contact
Links
Forum
Authors by letter: A B C D E F G H I J K L M N O P Q R S T U V W X Y Z Other 
LOGIN
Username
Password
Poll of the day
Do you like fresh or processed food ?
Fresh food.
Processed food.
LINKS




Fata Verde - Phoenix Tabs

Home >> Artists starting with P >> Phoenix Tabs 

Fata Verde - Phoenix

Added by Administrator on 2006-07-31 23:26:07

D|-2----------4-2-0-2-2--2--0-0-2-4-----------------------4-2-0 
G|----4--0--0-----------------------0---4-2-0-2-4-0-2-4-0------


D|-2-------4-2-0-2-2--2--0-0-2-4-----------------------4-2-0-2
G|----4--0-----------------------0---4-2-0-2-4-0-2-4-0--------



E----------------------|--------------------|----------------------|-------------|
B----------------------|--------------------|----------------------|-------------|
G--4-0-2-0-------------|--4-0-2-0-----------|--4-0-2-0-------------|--4-2--------|
D--4-2-0--2-2----------|--4-2-0--2----------|--4-2-0--2-2----------|--4-2-0-2----| X2
A----------------------|--------------------|----------------------|-------------|
E----------------------|--------------------|----------------------|-------------|


Em G D
Fata verde cu parul padure
Fata verde cu parul padure
Simti cu privirea lor vrea sa te fure

[_refren_]
C G D Em
Noaptea-n ei tese ie
Zburatorii ca sa vie
Noaptea-n ei tese ie
Nimeni urma sa le-o stie


Fata verde ei te saruta
Cu privirea lor cea muta
Ochii negrii, ochi de tigani

[_refren_]

[_pasaj_]
D G
Umezi sunt de dor
C D
Si-al lor vis plin de zbor
Noapte ei se scalda
In sclipiri ca de salba ...
C D
In sclipiri de salba ...


Fata verde cu parul padure
Fata verde cu parul padure
Simti cum privirea lor vrea sa te fure ...

[_refren_]

correct these lyrics

Top 25 tabs of the month : 1) Dashboard Confessional - What I Wanted To Say Was, 2) Krewella - Alive, 3) Wax Fang - Majestic, 4) Emilys Army - Loch Lomond, 5) Black Keys - Summertime Blues, 6) Daft Punk - Beyond, 7) Jesus Culture - The Anthem, 8) Misc Unsigned Bands - The Slakadeliqs - Love Controls The Sun Feat Justin Nozuka, 9) Johnny Hobo And The Freight Trains - Im So Punk I Hate Punk, 10) John Butler Trio - Take Me, 11) En Vogue - Free Your Mind, 12) Andreas Et Nicolas - Je Deteste Le Sexe, 13) Jason Castro - Hallelujah, 14) Boyce Avenue - Your Biggest Fan, 15) Bernhoft - Cmon Talk, 16) Black Keys - Hold Me In Your Arms, 17) Heaven Shall Burn - Dying In Silence, 18) Biffy Clyro - Trumpet Or Tap, 19) Joe Satriani - Ill Put A Stone On Your Cairn, 20) Volbeat - Room 24, 21) Steven Wilson - The Watchmaker, 22) High On Fire - Samsara, 23) Hollywood Undead - Lump Your Head, 24) Jan Hegenberg - Strke Und Ehre, 25) Iron Maiden - Coming Home,
TmCod 2010
All tabs are property and copyright of their owners. All tabs provided for educational purposes only
Copyright © www.tabspedia.com Please read our Privacy policy