Search
Home
Add Tabs
Biography
Guestbook
News
Contact
Links
Forum
Authors by letter: A B C D E F G H I J K L M N O P Q R S T U V W X Y Z Other 
LOGIN
Username
Password
Poll of the day
Are you a romantic person?
Yes
No
LINKS




Inferior Devoties - Hypocrisy Tabs

Home >> Artists starting with H >> Hypocrisy Tabs 

Inferior Devoties - Hypocrisy

Added by Administrator on 2006-05-21 22:41:23



TUNING: A
RIFF 1 4x (trem pick) RIFF 2 (with lyrics) P.M. All, play moderate
a |---------------------------|----------------------------------------|
E |---------------------------|----------------------------------------|
C |---------------------------|----------------------------------------|
G |----------------------4-5--|----------------------------------------|
D |-0-7-8-0-10-8-0-7-8-0-2-3--|----------------------------------------|
A |---------------------------|-0"--3"--1"--1"--5"--0"--3"--1"--1"2"0"-|

RIFF 1, RIFF 2

RIFF 3 RIFF 4 (with lyrics)
a |-------------------------------------------|--------------------------|
E |-------------------------------------------|--------------------------|
C |-------------------------------------------|--------------------------|
G |-------------------------------------3-4-5-|----------0"--------------|
D |-00-15"-14"-00--15151414-00-15151414-1-2-3-|-0"-3"-2"-----0"-2"-3"-2"-|
A |-------------------------------------------|--------------------------|

RIFF 4 with trem bar solo

RIFF 5
a |----------------------------------------------------------------|
E |----------------------------------------------------------------|
C |----------------------------------------------------------------|
G |-----------------------------------------------------------5-4--|
D |-000000000000-3-111111111111-2-0000000000000-3-11111111111-3-2--|
A |----------------------------------------------------------------|
RIFF 5 harmonized
a |----------------------------------------------------------------|
E |----------------------------------------------------------------|
C |----------------------------------------------------------------|
G |----------------------------------------------------------------|
D |-15"-------18-17"------17-15"-------18-17"--171717191919--------|
A |----------------------------------------------------------------|

RIFF 2

RIFF 6 slow
a |-----------------------| 2x, 3 and 4th times play with keyboard or
E |-----------------------| high notes harmonizing
C |-----------------------|
G |---2-3---5-3---2-3-5-4-|
D |-0-----0-----0-----3-2-|
A |-----------------------|


SOLO (rhythm goes E5------F#5-G5-E5 and revrse)
a |------------------------------------------------------------------
E |15--14-14-14-11-11-11-10-10-8-10-10-------------------------------
C |------------------------------------------------------------------
G |----------------------------------------------8-11-10~------------
D |------------------------------------8-9-11-12-------------8-9-9-9-
A |------------------------------------------------------------------


a ---------------------------------|
E ---------------------------------|
C ------------------/5-4-----------|
G -----------------------6-7-6-2-3-|
D 12-12-12-9-9-8-9-9---------------|
A ---------------------------------|

RIFF 6 totally new harmonizing with keyboard with 'ahs'.
RIFF 1 (begins with h.p.m. and slow) with fill. RIFF 4. RIFF 3 (last time harmonized) The end.

SYMBOL OF BAPHOMET by hypocrisy
TUNING : C# (at least for me)

RIFF 1 (2x) (second time don't do the chords at the end, but start
c#|----------------------------------------------------------------| SOLO 1)
G#|----------------------------------------------------------------|
E |----------------------------------------------------------------|
B |10\9--10\9--10\9--------10\9--10\9--10\9------------------------|
F#|8-\7--8-\7--8-\7--------8-\7--8-\7--8-\7-5-5-3-3----------------|
C#|----00----00----00-00-00----00----00----03-3-1-1----------------|

RIFF 2
c#|-------------------------------------------------------|--ending#2
G#|-----------------------------------------------9h10----|--------|
E |-------------------------------------------9h10----9h10|--^-----|
B |10\9---------10\9--------10\9----------9h10------------/////////|
F#|-8\7---------8-\7--------8-\7--------------------------|5-5-3-3-|
C#|----000000000----00000000----0000000000-----------------3-3-1-1-|

RIFF 3
c#|-----------------------------------------------|
G#|-----------------------------------------------|
E |---------------9h10p9h10---------------7h8p7h8-|
B |--------8h9p8h9-----------------6h7p6h7--------|
F#|-7h8p7h8-----------------5h6p5h6---------------|
C#|-----------------------------------------------|

RIFF 4
c#|---------------------------------------------------------| next time it is
G#|---------------------------------------------------------| played with a 'ya'
E |---------------------------------------------------------| a bass attach, and
B |---------------------------------------10109988888877777-| a guitar solo atah
F#|-7777777777-7h10p7----------------77777------------------| (SOLO 2)
C#|------------------6666666665555555-----------------------|

RIFF 2 with wooooocalz.-5-5-3-3
C#3-3-1-1
BREAK
c#|----------------------------------------------------------------|
G#|----------------------------------------------------------------|
E |----------------------------------------------------------------|
B |-2--------------2-----------------------------------------------|
F#|-2--------------2-----------------------------------------------|
C#|-0--------------0----------x\\\\\\\\\\-------GttttrrrrrrrrAhhhhh|

RIFF 5 "~~~~~~" - slir/trill - do it FAST
c#|------------------------------------------------------------------
G#|------------------------------------------------------------------
E |---------------"~~~~~"---------------------------------"~~~~~"----
B |---"~~~~~"------8h9p8-----"~~~~~"------------"~~~~~"----8h9p8-----
F#|----7h8p7------------------7h8p7--------------7h8p7---------------
C#|0-0---------0-0--------0-0--------0-0-0-0-0-0-------0-0-------0-0-

3rd&4th time harmonized by 2 guitars
c#--------------------|--------------------------------------------|
G#--------------------|--------------------------------------------|
E --------------------|-----898-or----9109-or something------------|
B "~~~~~"-2---2-------|-898--------898-----------------------------|
F#-7h8p7--2---2-------|--------------------------------------------|
C#----------0---0-0-0-|--------------------------------------------|

RIFF 6
c#|--------------------------------------------------------------------|
G#|--------------------------------------------------------------------|
E |-------------------------------------------------------910--910--910|
B |---------------------------------------910--910--910---910--910--910|
F#|----7-8----7-8---7-8----7-8---78--78---78---78---78----78---78---78-|
C#|-0-------00----00----0------00--00--0-----00---00---0-----00---00---|

BREAK
c#|-------------a.h.(pluck)----------------------------------------|
G#|-------------0--------------------------------------------------|
E |--------------0-------------------------------------------------|
B |-2-------2------2------2----------------------------------------|
F#|-2-------2------2------2------x\\\\\\\\\\\---aafsdgadfg---------|
C#|-0-------0------0------0----------------------------------------|

SOLO 3

RIFF 3

MENTAL eMoTiOnS (update) RIFF 1 only
e |------------------------------------------|
B |----------------------------------I guess-|
G |----------------------------------^-------|
D |-2--2--------------2-2------------2-------|
A |-2--2--------------2-2--------------------|
E |-0--0--5-7-5-3-5-3-0-0-5-7-5-3-5-AH-------|

Thanks to thudord@yahoo.com

correct these lyrics

Top 25 tabs of the month : 1) Dashboard Confessional - What I Wanted To Say Was, 2) Krewella - Alive, 3) Wax Fang - Majestic, 4) Emilys Army - Loch Lomond, 5) Black Keys - Summertime Blues, 6) Daft Punk - Beyond, 7) Jesus Culture - The Anthem, 8) Misc Unsigned Bands - The Slakadeliqs - Love Controls The Sun Feat Justin Nozuka, 9) Johnny Hobo And The Freight Trains - Im So Punk I Hate Punk, 10) John Butler Trio - Take Me, 11) En Vogue - Free Your Mind, 12) Andreas Et Nicolas - Je Deteste Le Sexe, 13) Jason Castro - Hallelujah, 14) Boyce Avenue - Your Biggest Fan, 15) Bernhoft - Cmon Talk, 16) Black Keys - Hold Me In Your Arms, 17) Heaven Shall Burn - Dying In Silence, 18) Biffy Clyro - Trumpet Or Tap, 19) Joe Satriani - Ill Put A Stone On Your Cairn, 20) Volbeat - Room 24, 21) Steven Wilson - The Watchmaker, 22) High On Fire - Samsara, 23) Hollywood Undead - Lump Your Head, 24) Jan Hegenberg - Strke Und Ehre, 25) Iron Maiden - Coming Home,
TmCod 2010
All tabs are property and copyright of their owners. All tabs provided for educational purposes only
Copyright © www.tabspedia.com Please read our Privacy policy